ISO-10303-21;
HEADER;
FILE_DESCRIPTION (( 'STEP AP214' ),
    '1' );
FILE_NAME ('16-0001-BL.STEP',
    '2023-10-20T20:32:42',
    ( '' ),
    ( '' ),
    'SwSTEP 2.0',
    'SolidWorks 2022',
    '' );
FILE_SCHEMA (( 'AUTOMOTIVE_DESIGN' ));
ENDSEC;

DATA;
#1 = AXIS2_PLACEMENT_3D ( 'NONE', #113, #121, #52 ) ;
#2 = ADVANCED_FACE ( 'NONE', ( #40 ), #254, .T. ) ;
#3 = VERTEX_POINT ( 'NONE', #11 ) ;
#4 = PRODUCT_DEFINITION_SHAPE ( 'NONE', 'NONE',  #383 ) ;
#5 = VERTEX_POINT ( 'NONE', #250 ) ;
#6 = EDGE_CURVE ( 'NONE', #3, #145, #359, .T. ) ;
#7 = VERTEX_POINT ( 'NONE', #224 ) ;
#8 = COLOUR_RGB ( '',0.6470588235294117974, 0.6196078431372549211, 0.5882352941176470784 ) ;
#9 = CARTESIAN_POINT ( 'NONE',  ( -0.4545454545454549189, 540.9123958466923341, -0.3225806451612908687 ) ) ;
#10 = APPLICATION_CONTEXT ( 'automotive_design' ) ;
#11 = CARTESIAN_POINT ( 'NONE',  ( 0.4545454545454549189, 525.0000000000000000, -0.3225806451612904246 ) ) ;
#12 = DIRECTION ( 'NONE',  ( 0.000000000000000000, 1.000000000000000000, 0.000000000000000000 ) ) ;
#13 = ORIENTED_EDGE ( 'NONE', *, *, #239, .F. ) ;
#14 = AXIS2_PLACEMENT_3D ( 'NONE', #217, #104, #73 ) ;
#15 = EDGE_CURVE ( 'NONE', #353, #64, #367, .T. ) ;
#16 = DIRECTION ( 'NONE',  ( 1.000000000000000000, 0.000000000000000000, 1.387778780781443827E-17 ) ) ;
#17 = DIRECTION ( 'NONE',  ( 1.363424677225497775E-16, 1.977862457944677582E-32, -1.000000000000000000 ) ) ;
#18 =( LENGTH_UNIT ( ) NAMED_UNIT ( * ) SI_UNIT ( .MILLI., .METRE. ) );
#19 = DIRECTION ( 'NONE',  ( 0.000000000000000000, -1.000000000000000000, -0.000000000000000000 ) ) ;
#20 = SHAPE_REPRESENTATION ( '16-0001-BL', ( #330, #60 ), #157 ) ;
#21 = CARTESIAN_POINT ( 'NONE',  ( 0.000000000000000000, 525.0000000000000000, 0.000000000000000000 ) ) ;
#22 = DIRECTION ( 'NONE',  ( -1.000000000000000000, -1.224646799147351482E-16, -1.387778780781443827E-17 ) ) ;
#23 =( GEOMETRIC_REPRESENTATION_CONTEXT ( 3 ) GLOBAL_UNCERTAINTY_ASSIGNED_CONTEXT ( ( #56 ) ) GLOBAL_UNIT_ASSIGNED_CONTEXT ( ( #87, #287, #236 ) ) REPRESENTATION_CONTEXT ( 'NONE', 'WORKASPACE' ) );
#24 = DIRECTION ( 'NONE',  ( 0.000000000000000000, 0.000000000000000000, 1.000000000000000000 ) ) ;
#25 = CARTESIAN_POINT ( 'NONE',  ( -0.4545454545454549189, 525.0000000000000000, 6.776263578034402713E-18 ) ) ;
#26 = CARTESIAN_POINT ( 'NONE',  ( 1.085868921069208886E-16, 510.0000000000000000, 1.000000000000000000 ) ) ;
#27 = EDGE_LOOP ( 'NONE', ( #126, #209, #156, #325, #67 ) ) ;
#28 = CARTESIAN_POINT ( 'NONE',  ( 0.000000000000000000, -514.6000000000000227, 0.000000000000000000 ) ) ;
#29 = APPLICATION_PROTOCOL_DEFINITION ( 'draft international standard', 'automotive_design', 1998, #360 ) ;
#30 = EDGE_CURVE ( 'NONE', #64, #145, #202, .T. ) ;
#31 = AXIS2_PLACEMENT_3D ( 'NONE', #139, #68, #332 ) ;
#32 = CIRCLE ( 'NONE', #201, 0.3225806451612908687 ) ;
#33 = ORIENTED_EDGE ( 'NONE', *, *, #204, .F. ) ;
#34 = AXIS2_PLACEMENT_3D ( 'NONE', #159, #252, #188 ) ;
#35 = ORIENTED_EDGE ( 'NONE', *, *, #204, .T. ) ;
#36 = ADVANCED_FACE ( 'NONE', ( #336 ), #102, .T. ) ;
#37 = ORIENTED_EDGE ( 'NONE', *, *, #55, .F. ) ;
#38 = FACE_OUTER_BOUND ( 'NONE', #377, .T. ) ;
#39 = CIRCLE ( 'NONE', #88, 0.3225806451612908687 ) ;
#40 = FACE_OUTER_BOUND ( 'NONE', #327, .T. ) ;
#41 = CARTESIAN_POINT ( 'NONE',  ( 1.085868921069210365E-16, 510.0000000000000000, 1.000000000000001332 ) ) ;
#42 = ORIENTED_EDGE ( 'NONE', *, *, #212, .F. ) ;
#43 = ADVANCED_FACE ( 'NONE', ( #369 ), #357, .T. ) ;
#44 = CARTESIAN_POINT ( 'NONE',  ( 0.000000000000000000, 0.000000000000000000, 0.000000000000000000 ) ) ;
#45 = CYLINDRICAL_SURFACE ( 'NONE', #166, 1.000000000000001332 ) ;
#46 =( NAMED_UNIT ( * ) PLANE_ANGLE_UNIT ( ) SI_UNIT ( $, .RADIAN. ) );
#47 = DIRECTION ( 'NONE',  ( 0.000000000000000000, -1.000000000000000000, -0.000000000000000000 ) ) ;
#48 = CYLINDRICAL_SURFACE ( 'NONE', #14, 0.3225806451612908687 ) ;
#49 = EDGE_CURVE ( 'NONE', #72, #154, #316, .T. ) ;
#50 = DIRECTION ( 'NONE',  ( 0.000000000000000000, 0.000000000000000000, 1.000000000000000000 ) ) ;
#51 =( REPRESENTATION_RELATIONSHIP ('NONE','NONE', #20, #181 ) REPRESENTATION_RELATIONSHIP_WITH_TRANSFORMATION ( #266 )SHAPE_REPRESENTATION_RELATIONSHIP( ) );
#52 = DIRECTION ( 'NONE',  ( -1.387778780781443827E-17, 0.000000000000000000, 1.000000000000000000 ) ) ;
#53 = SURFACE_SIDE_STYLE ('',( #123 ) ) ;
#54 = VECTOR ( 'NONE', #279, 1000.000000000000000 ) ;
#55 = EDGE_CURVE ( 'NONE', #7, #72, #326, .T. ) ;
#56 = UNCERTAINTY_MEASURE_WITH_UNIT (LENGTH_MEASURE( 1.000000000000000082E-05 ), #87, 'distance_accuracy_value', 'NONE');
#57 = FILL_AREA_STYLE ('',( #265 ) ) ;
#58 = DIRECTION ( 'NONE',  ( -1.387778780781443827E-17, 0.000000000000000000, 1.000000000000000000 ) ) ;
#59 = VERTEX_POINT ( 'NONE', #307 ) ;
#60 = AXIS2_PLACEMENT_3D ( 'NONE', #28, #174, #149 ) ;
#61 = EDGE_CURVE ( 'NONE', #186, #271, #226, .T. ) ;
#62 = ORIENTED_EDGE ( 'NONE', *, *, #90, .T. ) ;
#63 = PRODUCT ( '16-0001-BL', '16-0001-BL', '', ( #112 ) ) ;
#64 = VERTEX_POINT ( 'NONE', #245 ) ;
#65 = ADVANCED_FACE ( 'NONE', ( #100 ), #45, .T. ) ;
#66 = EDGE_LOOP ( 'NONE', ( #301, #93 ) ) ;
#67 = ORIENTED_EDGE ( 'NONE', *, *, #49, .T. ) ;
#68 = DIRECTION ( 'NONE',  ( -1.224646799147353947E-16, 1.000000000000000000, 3.081487911019577365E-33 ) ) ;
#69 = FACE_OUTER_BOUND ( 'NONE', #66, .T. ) ;
#70 = EDGE_CURVE ( 'NONE', #205, #264, #282, .T. ) ;
#71 = DIRECTION ( 'NONE',  ( 0.000000000000000000, -1.000000000000000000, -0.000000000000000000 ) ) ;
#72 = VERTEX_POINT ( 'NONE', #284 ) ;
#73 = DIRECTION ( 'NONE',  ( 0.000000000000000000, 0.000000000000000000, -1.000000000000000000 ) ) ;
#74 = CARTESIAN_POINT ( 'NONE',  ( 0.000000000000000000, 0.000000000000000000, 0.000000000000000000 ) ) ;
#75 = CIRCLE ( 'NONE', #294, 0.3225806451612908132 ) ;
#76 = LINE ( 'NONE', #275, #268 ) ;
#77 = CYLINDRICAL_SURFACE ( 'NONE', #135, 0.3225806451612908687 ) ;
#78 = DIRECTION ( 'NONE',  ( 0.000000000000000000, 1.000000000000000000, 0.000000000000000000 ) ) ;
#79 = CARTESIAN_POINT ( 'NONE',  ( 0.000000000000000000, 0.000000000000000000, 0.000000000000000000 ) ) ;
#80 = DIRECTION ( 'NONE',  ( 0.000000000000000000, 1.000000000000000000, 0.000000000000000000 ) ) ;
#81 = CIRCLE ( 'NONE', #1, 1.000000000000001332 ) ;
#82 = CIRCLE ( 'NONE', #152, 0.3225806451612908687 ) ;
#83 = DIRECTION ( 'NONE',  ( 0.000000000000000000, -1.000000000000000000, -0.000000000000000000 ) ) ;
#84 = ORIENTED_EDGE ( 'NONE', *, *, #61, .F. ) ;
#85 = SURFACE_STYLE_USAGE ( .BOTH. , #53 ) ;
#86 =( NAMED_UNIT ( * ) PLANE_ANGLE_UNIT ( ) SI_UNIT ( $, .RADIAN. ) );
#87 =( LENGTH_UNIT ( ) NAMED_UNIT ( * ) SI_UNIT ( .MILLI., .METRE. ) );
#88 = AXIS2_PLACEMENT_3D ( 'NONE', #366, #337, #101 ) ;
#89 = ORIENTED_EDGE ( 'NONE', *, *, #373, .F. ) ;
#90 = EDGE_CURVE ( 'NONE', #154, #5, #232, .T. ) ;
#91 = ORIENTED_EDGE ( 'NONE', *, *, #70, .T. ) ;
#92 = AXIS2_PLACEMENT_3D ( 'NONE', #169, #12, #285 ) ;
#93 = ORIENTED_EDGE ( 'NONE', *, *, #212, .T. ) ;
#94 = ADVANCED_BREP_SHAPE_REPRESENTATION ( '', ( #143, #338 ), #351 ) ;
#95 = ORIENTED_EDGE ( 'NONE', *, *, #30, .F. ) ;
#96 = UNCERTAINTY_MEASURE_WITH_UNIT (LENGTH_MEASURE( 1.000000000000000082E-05 ), #237, 'distance_accuracy_value', 'NONE');
#97 = EDGE_CURVE ( 'NONE', #59, #339, #76, .T. ) ;
#98 = DIRECTION ( 'NONE',  ( 1.000000000000000000, 0.000000000000000000, 0.000000000000000000 ) ) ;
#99 = VECTOR ( 'NONE', #243, 1000.000000000000000 ) ;
#100 = FACE_OUTER_BOUND ( 'NONE', #27, .T. ) ;
#101 = DIRECTION ( 'NONE',  ( 0.000000000000000000, 0.000000000000000000, 1.000000000000000000 ) ) ;
#102 = CYLINDRICAL_SURFACE ( 'NONE', #120, 0.3225806451612908687 ) ;
#103 = PRODUCT_DEFINITION_SHAPE ( 'NONE', 'NONE',  #106 ) ;
#104 = DIRECTION ( 'NONE',  ( 0.000000000000000000, -1.000000000000000000, -0.000000000000000000 ) ) ;
#105 = DIRECTION ( 'NONE',  ( -1.224646799147353947E-16, 1.000000000000000000, 3.081487911019577365E-33 ) ) ;
#106 = PRODUCT_DEFINITION ( 'UNKNOWN', '', #289, #355 ) ;
#107 = CARTESIAN_POINT ( 'NONE',  ( -0.4545454545454548634, 510.0000000000000000, 0.3225806451612903691 ) ) ;
#108 = DIRECTION ( 'NONE',  ( 1.387778780781443827E-17, 4.781026752828190158E-33, -1.000000000000000000 ) ) ;
#109 = AXIS2_PLACEMENT_3D ( 'NONE', #203, #380, #147 ) ;
#110 = FACE_BOUND ( 'NONE', #182, .T. ) ;
#111 = DIRECTION ( 'NONE',  ( 0.000000000000000000, 0.000000000000000000, 1.000000000000000000 ) ) ;
#112 = PRODUCT_CONTEXT ( 'NONE', #125, 'mechanical' ) ;
#113 = CARTESIAN_POINT ( 'NONE',  ( 0.000000000000000000, 510.0000000000000000, 0.000000000000000000 ) ) ;
#114 = UNCERTAINTY_MEASURE_WITH_UNIT (LENGTH_MEASURE( 1.000000000000000082E-05 ), #176, 'distance_accuracy_value', 'NONE');
#115 = SHAPE_DEFINITION_REPRESENTATION ( #215, #181 ) ;
#116 = ADVANCED_FACE ( 'NONE', ( #38 ), #372, .T. ) ;
#117 = DIRECTION ( 'NONE',  ( 0.000000000000000000, 1.000000000000000000, 0.000000000000000000 ) ) ;
#118 = EDGE_LOOP ( 'NONE', ( #235, #240 ) ) ;
#119 = AXIS2_PLACEMENT_3D ( 'NONE', #170, #374, #22 ) ;
#120 = AXIS2_PLACEMENT_3D ( 'NONE', #168, #19, #306 ) ;
#121 = DIRECTION ( 'NONE',  ( 0.000000000000000000, 1.000000000000000000, 0.000000000000000000 ) ) ;
#122 = ORIENTED_EDGE ( 'NONE', *, *, #97, .T. ) ;
#123 = SURFACE_STYLE_FILL_AREA ( #57 ) ;
#124 = AXIS2_PLACEMENT_3D ( 'NONE', #44, #278, #16 ) ;
#125 = APPLICATION_CONTEXT ( 'automotive_design' ) ;
#126 = ORIENTED_EDGE ( 'NONE', *, *, #272, .F. ) ;
#127 = ORIENTED_EDGE ( 'NONE', *, *, #239, .T. ) ;
#128 = CIRCLE ( 'NONE', #165, 1.000000000000001332 ) ;
#129 = EDGE_LOOP ( 'NONE', ( #33, #122, #292, #238 ) ) ;
#130 = ORIENTED_EDGE ( 'NONE', *, *, #352, .T. ) ;
#131 = EDGE_CURVE ( 'NONE', #205, #59, #82, .T. ) ;
#132 = DIRECTION ( 'NONE',  ( 0.000000000000000000, 1.000000000000000000, 0.000000000000000000 ) ) ;
#133 = FACE_BOUND ( 'NONE', #350, .T. ) ;
#134 = CLOSED_SHELL ( 'NONE', ( #342, #298, #2, #267, #296, #65, #43, #116, #364, #36, #308 ) ) ;
#135 = AXIS2_PLACEMENT_3D ( 'NONE', #280, #229, #247 ) ;
#136 = DIRECTION ( 'NONE',  ( 0.000000000000000000, 1.000000000000000000, 0.000000000000000000 ) ) ;
#137 = EDGE_LOOP ( 'NONE', ( #297, #35 ) ) ;
#138 = CARTESIAN_POINT ( 'NONE',  ( 0.4545454545454549744, 525.0000000000000000, 0.3225806451612904246 ) ) ;
#139 = CARTESIAN_POINT ( 'NONE',  ( 0.000000000000000000, 0.000000000000000000, 0.000000000000000000 ) ) ;
#140 = DIRECTION ( 'NONE',  ( 0.000000000000000000, 1.000000000000000000, 0.000000000000000000 ) ) ;
#141 = SURFACE_SIDE_STYLE ('',( #171 ) ) ;
#142 = APPLICATION_PROTOCOL_DEFINITION ( 'draft international standard', 'automotive_design', 1998, #125 ) ;
#143 = MANIFOLD_SOLID_BREP ( 'Rotation1', #134 ) ;
#144 = FILL_AREA_STYLE_COLOUR ( '', #317 ) ;
#145 = VERTEX_POINT ( 'NONE', #257 ) ;
#146 =( NAMED_UNIT ( * ) PLANE_ANGLE_UNIT ( ) SI_UNIT ( $, .RADIAN. ) );
#147 = DIRECTION ( 'NONE',  ( 1.387778780781443827E-17, 0.000000000000000000, -1.000000000000000000 ) ) ;
#148 = EDGE_LOOP ( 'NONE', ( #89, #300, #185, #233 ) ) ;
#149 = DIRECTION ( 'NONE',  ( -0.9947516820763505629, 0.000000000000000000, 0.1023185760567037750 ) ) ;
#150 = AXIS2_PLACEMENT_3D ( 'NONE', #21, #305, #193 ) ;
#151 = PRODUCT_DEFINITION ( 'UNKNOWN', '', #153, #211 ) ;
#152 = AXIS2_PLACEMENT_3D ( 'NONE', #25, #78, #24 ) ;
#153 = PRODUCT_DEFINITION_FORMATION_WITH_SPECIFIED_SOURCE ( 'ANY', '', #246, .NOT_KNOWN. ) ;
#154 = VERTEX_POINT ( 'NONE', #262 ) ;
#155 = ORIENTED_EDGE ( 'NONE', *, *, #198, .F. ) ;
#156 = ORIENTED_EDGE ( 'NONE', *, *, #61, .T. ) ;
#157 =( GEOMETRIC_REPRESENTATION_CONTEXT ( 3 ) GLOBAL_UNCERTAINTY_ASSIGNED_CONTEXT ( ( #96 ) ) GLOBAL_UNIT_ASSIGNED_CONTEXT ( ( #237, #146, #378 ) ) REPRESENTATION_CONTEXT ( 'NONE', 'WORKASPACE' ) );
#158 = DIRECTION ( 'NONE',  ( 1.000000000000000000, 1.224646799147351482E-16, 1.387778780781443827E-17 ) ) ;
#159 = CARTESIAN_POINT ( 'NONE',  ( 0.000000000000000000, 0.000000000000000000, 0.000000000000000000 ) ) ;
#160 = FACE_OUTER_BOUND ( 'NONE', #137, .T. ) ;
#161 = DIRECTION ( 'NONE',  ( 0.000000000000000000, 0.000000000000000000, 1.000000000000000000 ) ) ;
#162 = EDGE_CURVE ( 'NONE', #186, #208, #248, .T. ) ;
#163 = CARTESIAN_POINT ( 'NONE',  ( 1.387778780781443364E-17, 0.000000000000000000, -1.000000000000000000 ) ) ;
#164 = DIRECTION ( 'NONE',  ( 0.000000000000000000, -1.000000000000000000, -0.000000000000000000 ) ) ;
#165 = AXIS2_PLACEMENT_3D ( 'NONE', #312, #196, #370 ) ;
#166 = AXIS2_PLACEMENT_3D ( 'NONE', #220, #164, #311 ) ;
#167 = DIRECTION ( 'NONE',  ( -1.387778780781443827E-17, 0.000000000000000000, 1.000000000000000000 ) ) ;
#168 = CARTESIAN_POINT ( 'NONE',  ( -0.4545454545454549189, 540.9123958466923341, 6.776263578034402713E-18 ) ) ;
#169 = CARTESIAN_POINT ( 'NONE',  ( -0.4545454545454549189, 510.0000000000000000, 6.776263578034402713E-18 ) ) ;
#170 = CARTESIAN_POINT ( 'NONE',  ( 0.000000000000000000, 0.000000000000000000, 0.000000000000000000 ) ) ;
#171 = SURFACE_STYLE_FILL_AREA ( #288 ) ;
#172 = EDGE_CURVE ( 'NONE', #3, #353, #379, .T. ) ;
#173 = AXIS2_PLACEMENT_3D ( 'NONE', #286, #117, #58 ) ;
#174 = DIRECTION ( 'NONE',  ( -0.1023185760567037750, 0.000000000000000000, -0.9947516820763505629 ) ) ;
#175 = DIRECTION ( 'NONE',  ( 0.000000000000000000, 1.000000000000000000, 0.000000000000000000 ) ) ;
#176 =( LENGTH_UNIT ( ) NAMED_UNIT ( * ) SI_UNIT ( .MILLI., .METRE. ) );
#177 = ORIENTED_EDGE ( 'NONE', *, *, #198, .T. ) ;
#178 = SHAPE_REPRESENTATION_RELATIONSHIP ( 'NONE' , 'NONE' ,  #181, #94 ) ;
#179 = SHAPE_DEFINITION_REPRESENTATION ( #103, #20 ) ;
#180 =( GEOMETRIC_REPRESENTATION_CONTEXT ( 3 ) GLOBAL_UNCERTAINTY_ASSIGNED_CONTEXT ( ( #114 ) ) GLOBAL_UNIT_ASSIGNED_CONTEXT ( ( #176, #86, #206 ) ) REPRESENTATION_CONTEXT ( 'NONE', 'WORKASPACE' ) );
#181 = SHAPE_REPRESENTATION ( '16-0102xx-BL20_D2', ( #338 ), #351 ) ;
#182 = EDGE_LOOP ( 'NONE', ( #184, #276 ) ) ;
#183 = AXIS2_PLACEMENT_3D ( 'NONE', #74, #17, #194 ) ;
#184 = ORIENTED_EDGE ( 'NONE', *, *, #352, .F. ) ;
#185 = ORIENTED_EDGE ( 'NONE', *, *, #30, .T. ) ;
#186 = VERTEX_POINT ( 'NONE', #315 ) ;
#187 = STYLED_ITEM ( 'NONE', ( #318 ), #94 ) ;
#188 = DIRECTION ( 'NONE',  ( 1.000000000000000000, 1.224646799147351482E-16, 1.387778780781443827E-17 ) ) ;
#189 = FACE_OUTER_BOUND ( 'NONE', #129, .T. ) ;
#190 = CARTESIAN_POINT ( 'NONE',  ( 0.4545454545454549189, 510.0000000000000000, -6.776263578034402713E-18 ) ) ;
#191 = CARTESIAN_POINT ( 'NONE',  ( 0.000000000000000000, 525.0000000000000000, 0.000000000000000000 ) ) ;
#192 = CARTESIAN_POINT ( 'NONE',  ( 0.000000000000000000, 0.000000000000000000, 0.000000000000000000 ) ) ;
#193 = DIRECTION ( 'NONE',  ( -1.387778780781443827E-17, 0.000000000000000000, 1.000000000000000000 ) ) ;
#194 = DIRECTION ( 'NONE',  ( -1.000000000000000000, 0.000000000000000000, -1.363424677225497775E-16 ) ) ;
#195 = AXIS2_PLACEMENT_3D ( 'NONE', #199, #80, #50 ) ;
#196 = DIRECTION ( 'NONE',  ( -1.224646799147353947E-16, 1.000000000000000000, 3.081487911019577365E-33 ) ) ;
#197 = DIRECTION ( 'NONE',  ( 0.000000000000000000, -1.000000000000000000, -0.000000000000000000 ) ) ;
#198 = EDGE_CURVE ( 'NONE', #5, #271, #281, .T. ) ;
#199 = CARTESIAN_POINT ( 'NONE',  ( 0.4545454545454549189, 525.0000000000000000, -6.776263578034402713E-18 ) ) ;
#200 = PRESENTATION_LAYER_ASSIGNMENT (  '', '', ( #361 ) ) ;
#201 = AXIS2_PLACEMENT_3D ( 'NONE', #343, #175, #291 ) ;
#202 = CIRCLE ( 'NONE', #345, 0.3225806451612908687 ) ;
#203 = CARTESIAN_POINT ( 'NONE',  ( 0.000000000000000000, 510.0000000000000000, 0.000000000000000000 ) ) ;
#204 = EDGE_CURVE ( 'NONE', #59, #205, #263, .T. ) ;
#205 = VERTEX_POINT ( 'NONE', #341 ) ;
#206 =( NAMED_UNIT ( * ) SI_UNIT ( $, .STERADIAN. ) SOLID_ANGLE_UNIT ( ) );
#207 = CONTEXT_DEPENDENT_SHAPE_REPRESENTATION ( #51, #4 ) ;
#208 = VERTEX_POINT ( 'NONE', #26 ) ;
#209 = ORIENTED_EDGE ( 'NONE', *, *, #162, .F. ) ;
#210 = ORIENTED_EDGE ( 'NONE', *, *, #131, .F. ) ;
#211 = PRODUCT_DEFINITION_CONTEXT ( 'detailed design', #360, 'design' ) ;
#212 = EDGE_CURVE ( 'NONE', #208, #186, #81, .T. ) ;
#213 = EDGE_LOOP ( 'NONE', ( #37, #242, #261, #356 ) ) ;
#214 = CARTESIAN_POINT ( 'NONE',  ( 1.387778780781445676E-17, 510.0000000000000000, -1.000000000000001332 ) ) ;
#215 = PRODUCT_DEFINITION_SHAPE ( 'NONE', 'NONE',  #151 ) ;
#216 = VECTOR ( 'NONE', #71, 1000.000000000000000 ) ;
#217 = CARTESIAN_POINT ( 'NONE',  ( 0.4545454545454549189, 540.9123958466923341, -6.776263578034402713E-18 ) ) ;
#218 = AXIS2_PLACEMENT_3D ( 'NONE', #319, #140, #111 ) ;
#219 = AXIS2_PLACEMENT_3D ( 'NONE', #283, #136, #167 ) ;
#220 = CARTESIAN_POINT ( 'NONE',  ( 0.000000000000000000, 510.0000000000000000, 0.000000000000000000 ) ) ;
#221 = PLANE ( 'NONE',  #241 ) ;
#222 = CARTESIAN_POINT ( 'NONE',  ( 0.000000000000000000, 0.000000000000000000, 0.000000000000000000 ) ) ;
#223 = CARTESIAN_POINT ( 'NONE',  ( -0.4545454545454549189, 510.0000000000000000, 6.776263578034402713E-18 ) ) ;
#224 = CARTESIAN_POINT ( 'NONE',  ( 1.836970198721031413E-16, -1.000000000000000000, -2.231718490115270284E-33 ) ) ;
#225 = DIRECTION ( 'NONE',  ( 0.000000000000000000, 0.000000000000000000, 1.000000000000000000 ) ) ;
#226 = LINE ( 'NONE', #214, #54 ) ;
#227 = MECHANICAL_DESIGN_GEOMETRIC_PRESENTATION_REPRESENTATION (  '', ( #187 ), #23 ) ;
#228 = PRODUCT_RELATED_PRODUCT_CATEGORY ( 'part', '', ( #63 ) ) ;
#229 = DIRECTION ( 'NONE',  ( 0.000000000000000000, -1.000000000000000000, -0.000000000000000000 ) ) ;
#230 = DIRECTION ( 'NONE',  ( 0.000000000000000000, 0.000000000000000000, -1.000000000000000000 ) ) ;
#231 = CARTESIAN_POINT ( 'NONE',  ( 0.000000000000000000, 0.000000000000000000, 0.000000000000000000 ) ) ;
#232 = CIRCLE ( 'NONE', #31, 1.000000000000001332 ) ;
#233 = ORIENTED_EDGE ( 'NONE', *, *, #6, .F. ) ;
#234 = CARTESIAN_POINT ( 'NONE',  ( 0.4545454545454549189, 540.9123958466923341, -6.776263578034402713E-18 ) ) ;
#235 = ORIENTED_EDGE ( 'NONE', *, *, #172, .T. ) ;
#236 =( NAMED_UNIT ( * ) SI_UNIT ( $, .STERADIAN. ) SOLID_ANGLE_UNIT ( ) );
#237 =( LENGTH_UNIT ( ) NAMED_UNIT ( * ) SI_UNIT ( .MILLI., .METRE. ) );
#238 = ORIENTED_EDGE ( 'NONE', *, *, #70, .F. ) ;
#239 = EDGE_CURVE ( 'NONE', #145, #64, #32, .T. ) ;
#240 = ORIENTED_EDGE ( 'NONE', *, *, #373, .T. ) ;
#241 = AXIS2_PLACEMENT_3D ( 'NONE', #191, #340, #368 ) ;
#242 = ORIENTED_EDGE ( 'NONE', *, *, #322, .T. ) ;
#243 = DIRECTION ( 'NONE',  ( 0.000000000000000000, -1.000000000000000000, -0.000000000000000000 ) ) ;
#244 = PLANE ( 'NONE',  #150 ) ;
#245 = CARTESIAN_POINT ( 'NONE',  ( 0.4545454545454549744, 510.0000000000000000, 0.3225806451612904246 ) ) ;
#246 = PRODUCT ( '16-0102xx-BL20_D2', '16-0102xx-BL20_D2', '', ( #375 ) ) ;
#247 = DIRECTION ( 'NONE',  ( 0.000000000000000000, 0.000000000000000000, -1.000000000000000000 ) ) ;
#248 = CIRCLE ( 'NONE', #173, 1.000000000000001332 ) ;
#249 = AXIS2_PLACEMENT_3D ( 'NONE', #192, #108, #158 ) ;
#250 = CARTESIAN_POINT ( 'NONE',  ( 1.000000000000000666, 1.224646799147353454E-16, 1.387778780781444751E-17 ) ) ;
#251 = FACE_OUTER_BOUND ( 'NONE', #118, .T. ) ;
#252 = DIRECTION ( 'NONE',  ( 1.387778780781443827E-17, 4.781026752828190158E-33, -1.000000000000000000 ) ) ;
#253 = DIRECTION ( 'NONE',  ( 0.000000000000000000, 1.000000000000000000, 0.000000000000000000 ) ) ;
#254 = SPHERICAL_SURFACE ( 'NONE', #34, 1.000000000000000000 ) ;
#255 = PRODUCT_RELATED_PRODUCT_CATEGORY ( 'part', '', ( #246 ) ) ;
#256 = CARTESIAN_POINT ( 'NONE',  ( 0.000000000000000000, 0.000000000000000000, 0.000000000000000000 ) ) ;
#257 = CARTESIAN_POINT ( 'NONE',  ( 0.4545454545454549189, 510.0000000000000000, -0.3225806451612904246 ) ) ;
#258 = DIRECTION ( 'NONE',  ( 1.000000000000000000, 0.000000000000000000, 0.000000000000000000 ) ) ;
#259 = APPLICATION_PROTOCOL_DEFINITION ( 'draft international standard', 'automotive_design', 1998, #382 ) ;
#260 = CARTESIAN_POINT ( 'NONE',  ( -0.4545454545454549189, 510.0000000000000000, -0.3225806451612903691 ) ) ;
#261 = ORIENTED_EDGE ( 'NONE', *, *, #90, .F. ) ;
#262 = CARTESIAN_POINT ( 'NONE',  ( 1.085868921069208886E-16, 1.203706215242020766E-32, 1.000000000000000000 ) ) ;
#263 = CIRCLE ( 'NONE', #218, 0.3225806451612908687 ) ;
#264 = VERTEX_POINT ( 'NONE', #260 ) ;
#265 = FILL_AREA_STYLE_COLOUR ( '', #8 ) ;
#266 = ITEM_DEFINED_TRANSFORMATION ( 'NONE', 'NONE', #60,  #338 ) ;
#267 = ADVANCED_FACE ( 'NONE', ( #376 ), #346, .T. ) ;
#268 = VECTOR ( 'NONE', #197, 1000.000000000000000 ) ;
#269 = PRESENTATION_LAYER_ASSIGNMENT (  '', '', ( #187 ) ) ;
#270 = MECHANICAL_DESIGN_GEOMETRIC_PRESENTATION_REPRESENTATION (  '', ( #361 ), #180 ) ;
#271 = VERTEX_POINT ( 'NONE', #163 ) ;
#272 = EDGE_CURVE ( 'NONE', #208, #154, #335, .T. ) ;
#273 = ORIENTED_EDGE ( 'NONE', *, *, #97, .F. ) ;
#274 = ORIENTED_EDGE ( 'NONE', *, *, #6, .T. ) ;
#275 = CARTESIAN_POINT ( 'NONE',  ( -0.4545454545454548634, 540.9123958466923341, 0.3225806451612908687 ) ) ;
#276 = ORIENTED_EDGE ( 'NONE', *, *, #334, .F. ) ;
#277 = EDGE_CURVE ( 'NONE', #271, #72, #128, .T. ) ;
#278 = DIRECTION ( 'NONE',  ( -1.387778780781443827E-17, -4.781026752828190158E-33, 1.000000000000000000 ) ) ;
#279 = DIRECTION ( 'NONE',  ( 0.000000000000000000, -1.000000000000000000, -0.000000000000000000 ) ) ;
#280 = CARTESIAN_POINT ( 'NONE',  ( -0.4545454545454549189, 540.9123958466923341, 6.776263578034402713E-18 ) ) ;
#281 = CIRCLE ( 'NONE', #119, 1.000000000000001332 ) ;
#282 = LINE ( 'NONE', #9, #362 ) ;
#283 = CARTESIAN_POINT ( 'NONE',  ( 0.000000000000000000, 510.0000000000000000, 0.000000000000000000 ) ) ;
#284 = CARTESIAN_POINT ( 'NONE',  ( -1.000000000000000666, -1.224646799147353454E-16, -1.363424677225498514E-16 ) ) ;
#285 = DIRECTION ( 'NONE',  ( 0.000000000000000000, 0.000000000000000000, 1.000000000000000000 ) ) ;
#286 = CARTESIAN_POINT ( 'NONE',  ( 0.000000000000000000, 510.0000000000000000, 0.000000000000000000 ) ) ;
#287 =( NAMED_UNIT ( * ) PLANE_ANGLE_UNIT ( ) SI_UNIT ( $, .RADIAN. ) );
#288 = FILL_AREA_STYLE ('',( #144 ) ) ;
#289 = PRODUCT_DEFINITION_FORMATION_WITH_SPECIFIED_SOURCE ( 'ANY', '', #63, .NOT_KNOWN. ) ;
#290 = DIRECTION ( 'NONE',  ( 1.000000000000000000, 0.000000000000000000, 0.000000000000000000 ) ) ;
#291 = DIRECTION ( 'NONE',  ( 0.000000000000000000, 0.000000000000000000, 1.000000000000000000 ) ) ;
#292 = ORIENTED_EDGE ( 'NONE', *, *, #334, .T. ) ;
#293 = DIRECTION ( 'NONE',  ( 0.000000000000000000, 0.000000000000000000, 1.000000000000000000 ) ) ;
#294 = AXIS2_PLACEMENT_3D ( 'NONE', #223, #253, #225 ) ;
#295 = APPLICATION_PROTOCOL_DEFINITION ( 'draft international standard', 'automotive_design', 1998, #10 ) ;
#296 = ADVANCED_FACE ( 'NONE', ( #110, #69, #133 ), #314, .T. ) ;
#297 = ORIENTED_EDGE ( 'NONE', *, *, #131, .T. ) ;
#298 = ADVANCED_FACE ( 'NONE', ( #363 ), #48, .T. ) ;
#299 = CIRCLE ( 'NONE', #124, 1.000000000000000000 ) ;
#300 = ORIENTED_EDGE ( 'NONE', *, *, #15, .T. ) ;
#301 = ORIENTED_EDGE ( 'NONE', *, *, #162, .T. ) ;
#302 = ORIENTED_EDGE ( 'NONE', *, *, #322, .F. ) ;
#303 = CIRCLE ( 'NONE', #92, 0.3225806451612908132 ) ;
#304 = ORIENTED_EDGE ( 'NONE', *, *, #272, .T. ) ;
#305 = DIRECTION ( 'NONE',  ( 0.000000000000000000, 1.000000000000000000, 0.000000000000000000 ) ) ;
#306 = DIRECTION ( 'NONE',  ( 0.000000000000000000, 0.000000000000000000, -1.000000000000000000 ) ) ;
#307 = CARTESIAN_POINT ( 'NONE',  ( -0.4545454545454548634, 525.0000000000000000, 0.3225806451612904246 ) ) ;
#308 = ADVANCED_FACE ( 'NONE', ( #160 ), #221, .T. ) ;
#309 = DIRECTION ( 'NONE',  ( 0.000000000000000000, -1.000000000000000000, -0.000000000000000000 ) ) ;
#310 = VECTOR ( 'NONE', #309, 1000.000000000000000 ) ;
#311 = DIRECTION ( 'NONE',  ( 1.387778780781443827E-17, 0.000000000000000000, -1.000000000000000000 ) ) ;
#312 = CARTESIAN_POINT ( 'NONE',  ( 0.000000000000000000, 0.000000000000000000, 0.000000000000000000 ) ) ;
#313 = SURFACE_STYLE_USAGE ( .BOTH. , #141 ) ;
#314 = PLANE ( 'NONE',  #219 ) ;
#315 = CARTESIAN_POINT ( 'NONE',  ( 1.387778780781443827E-17, 510.0000000000000000, -1.000000000000000000 ) ) ;
#316 = CIRCLE ( 'NONE', #347, 1.000000000000001332 ) ;
#317 = COLOUR_RGB ( '',0.6470588235294117974, 0.6196078431372549211, 0.5882352941176470784 ) ;
#318 = PRESENTATION_STYLE_ASSIGNMENT (( #85 ) ) ;
#319 = CARTESIAN_POINT ( 'NONE',  ( -0.4545454545454549189, 525.0000000000000000, 6.776263578034402713E-18 ) ) ;
#320 = ORIENTED_EDGE ( 'NONE', *, *, #172, .F. ) ;
#321 = DIRECTION ( 'NONE',  ( 0.000000000000000000, 0.000000000000000000, 1.000000000000000000 ) ) ;
#322 = EDGE_CURVE ( 'NONE', #7, #5, #299, .T. ) ;
#323 = AXIS2_PLACEMENT_3D ( 'NONE', #79, #293, #258 ) ;
#324 = EDGE_LOOP ( 'NONE', ( #42, #304, #62, #177, #84 ) ) ;
#325 = ORIENTED_EDGE ( 'NONE', *, *, #277, .T. ) ;
#326 = CIRCLE ( 'NONE', #183, 1.000000000000000000 ) ;
#327 = EDGE_LOOP ( 'NONE', ( #302, #354, #328, #155 ) ) ;
#328 = ORIENTED_EDGE ( 'NONE', *, *, #277, .F. ) ;
#329 = CARTESIAN_POINT ( 'NONE',  ( 0.4545454545454549744, 540.9123958466923341, 0.3225806451612908687 ) ) ;
#330 = AXIS2_PLACEMENT_3D ( 'NONE', #231, #321, #290 ) ;
#331 =( NAMED_UNIT ( * ) SI_UNIT ( $, .STERADIAN. ) SOLID_ANGLE_UNIT ( ) );
#332 = DIRECTION ( 'NONE',  ( -1.000000000000000000, -1.224646799147351482E-16, -1.387778780781443827E-17 ) ) ;
#333 = DIRECTION ( 'NONE',  ( -1.000000000000000000, -1.224646799147351482E-16, -1.387778780781443827E-17 ) ) ;
#334 = EDGE_CURVE ( 'NONE', #339, #264, #303, .T. ) ;
#335 = LINE ( 'NONE', #41, #310 ) ;
#336 = FACE_OUTER_BOUND ( 'NONE', #348, .T. ) ;
#337 = DIRECTION ( 'NONE',  ( 0.000000000000000000, 1.000000000000000000, 0.000000000000000000 ) ) ;
#338 = AXIS2_PLACEMENT_3D ( 'NONE', #256, #358, #98 ) ;
#339 = VERTEX_POINT ( 'NONE', #107 ) ;
#340 = DIRECTION ( 'NONE',  ( 0.000000000000000000, 1.000000000000000000, 0.000000000000000000 ) ) ;
#341 = CARTESIAN_POINT ( 'NONE',  ( -0.4545454545454549189, 525.0000000000000000, -0.3225806451612904246 ) ) ;
#342 = ADVANCED_FACE ( 'NONE', ( #189 ), #77, .T. ) ;
#343 = CARTESIAN_POINT ( 'NONE',  ( 0.4545454545454549189, 510.0000000000000000, -6.776263578034402713E-18 ) ) ;
#344 = UNCERTAINTY_MEASURE_WITH_UNIT (LENGTH_MEASURE( 1.000000000000000082E-05 ), #18, 'distance_accuracy_value', 'NONE');
#345 = AXIS2_PLACEMENT_3D ( 'NONE', #190, #132, #161 ) ;
#346 = CYLINDRICAL_SURFACE ( 'NONE', #109, 1.000000000000001332 ) ;
#347 = AXIS2_PLACEMENT_3D ( 'NONE', #222, #105, #333 ) ;
#348 = EDGE_LOOP ( 'NONE', ( #273, #210, #91, #130 ) ) ;
#349 = PRESENTATION_STYLE_ASSIGNMENT (( #313 ) ) ;
#350 = EDGE_LOOP ( 'NONE', ( #13, #95 ) ) ;
#351 =( GEOMETRIC_REPRESENTATION_CONTEXT ( 3 ) GLOBAL_UNCERTAINTY_ASSIGNED_CONTEXT ( ( #344 ) ) GLOBAL_UNIT_ASSIGNED_CONTEXT ( ( #18, #46, #331 ) ) REPRESENTATION_CONTEXT ( 'NONE', 'WORKASPACE' ) );
#352 = EDGE_CURVE ( 'NONE', #264, #339, #75, .T. ) ;
#353 = VERTEX_POINT ( 'NONE', #138 ) ;
#354 = ORIENTED_EDGE ( 'NONE', *, *, #55, .T. ) ;
#355 = PRODUCT_DEFINITION_CONTEXT ( 'detailed design', #382, 'design' ) ;
#356 = ORIENTED_EDGE ( 'NONE', *, *, #49, .F. ) ;
#357 = SPHERICAL_SURFACE ( 'NONE', #249, 1.000000000000000000 ) ;
#358 = DIRECTION ( 'NONE',  ( 0.000000000000000000, 0.000000000000000000, 1.000000000000000000 ) ) ;
#359 = LINE ( 'NONE', #365, #99 ) ;
#360 = APPLICATION_CONTEXT ( 'automotive_design' ) ;
#361 = STYLED_ITEM ( 'NONE', ( #349 ), #143 ) ;
#362 = VECTOR ( 'NONE', #47, 1000.000000000000000 ) ;
#363 = FACE_OUTER_BOUND ( 'NONE', #148, .T. ) ;
#364 = ADVANCED_FACE ( 'NONE', ( #251 ), #244, .T. ) ;
#365 = CARTESIAN_POINT ( 'NONE',  ( 0.4545454545454549189, 540.9123958466923341, -0.3225806451612908687 ) ) ;
#366 = CARTESIAN_POINT ( 'NONE',  ( 0.4545454545454549189, 525.0000000000000000, -6.776263578034402713E-18 ) ) ;
#367 = LINE ( 'NONE', #329, #216 ) ;
#368 = DIRECTION ( 'NONE',  ( -1.387778780781443827E-17, 0.000000000000000000, 1.000000000000000000 ) ) ;
#369 = FACE_OUTER_BOUND ( 'NONE', #213, .T. ) ;
#370 = DIRECTION ( 'NONE',  ( -1.000000000000000000, -1.224646799147351482E-16, -1.387778780781443827E-17 ) ) ;
#371 = ORIENTED_EDGE ( 'NONE', *, *, #15, .F. ) ;
#372 = CYLINDRICAL_SURFACE ( 'NONE', #381, 0.3225806451612908687 ) ;
#373 = EDGE_CURVE ( 'NONE', #353, #3, #39, .T. ) ;
#374 = DIRECTION ( 'NONE',  ( -1.224646799147353947E-16, 1.000000000000000000, 3.081487911019577365E-33 ) ) ;
#375 = PRODUCT_CONTEXT ( 'NONE', #10, 'mechanical' ) ;
#376 = FACE_OUTER_BOUND ( 'NONE', #324, .T. ) ;
#377 = EDGE_LOOP ( 'NONE', ( #371, #320, #274, #127 ) ) ;
#378 =( NAMED_UNIT ( * ) SI_UNIT ( $, .STERADIAN. ) SOLID_ANGLE_UNIT ( ) );
#379 = CIRCLE ( 'NONE', #195, 0.3225806451612908687 ) ;
#380 = DIRECTION ( 'NONE',  ( 0.000000000000000000, -1.000000000000000000, -0.000000000000000000 ) ) ;
#381 = AXIS2_PLACEMENT_3D ( 'NONE', #234, #83, #230 ) ;
#382 = APPLICATION_CONTEXT ( 'automotive_design' ) ;
#383 = NEXT_ASSEMBLY_USAGE_OCCURRENCE ( 'NAUO1', ' ', ' ', #106, #151, $ ) ;
ENDSEC;
END-ISO-10303-21;
